THE FRAY
You Found Me

Para tocar en Guitarra
Acordes (Chords)
Tablaturas (Tab), Partituras

Español Traducción al Español
Videos Videos de la Canción
Guitarra Tócala en Guitarra
Português Tradução em Português
Français Traduction au Français


Intro - Piano to guitar
e|--------------------------------------------|
B|----3------3------3------3------3------3----|
G|--0---0--0---0--0---0--0---0--0---0--0---0--|
D|--------------------------------------------|
A|--------------------------------------------|
E|--------------------------------------------|

Verse Riff - Piano to guitar
e|--------------------------------------------------------|
B|------3--------3--------3--------3--------3--------3----|
G|--0-0---0--0-0---0--0-0---0--0-0---0--0-0---0--0-0---0--|
D|--------------------------------------------------------|
A|--------------------------------------------------------|
E|--------------------------------------------------------|

Verse 1* - Piano
[A B E
I found God
D G C
On the corner of First and Amistad
A B E
Where the west
D G C
Was all but won
A B E
All A-lone
D G C
Smoking his last cigarette
A B E
I said, “Where you been?”
D G C
He said, “Ask anything.”

Verse 1 - Guitar
A B] Em
Where were you
D/F# G C
When everything was falling apart?
A7sus4 G/B Em
All my days
D/F# G C
Were spent by the telephone
A7sus4 G/B Em
It never rang
D/F# G C
And all I needed was a call
A7sus4 G/B Em
It never came
D/F# G C A7sus4 G/B
To the corner of First and Amistad

Chorus
Em C
Lost and insecure
G D/F#
You found me, you found me
Em C
Lying on the floor
G D/F#
Surrounded, surrounded
Em C
Why’d you have to wait?
G D/F#
Where were you? Where were you?
Em C
Just a little late
G D/F# G Em
You found me, you found me

Interlude
Same as intro

Verse 2 - Same chords as V.1
But in the end
Everyone ends up alone
Losing her
The only one who’s ever known
Who I am, who I’m not, who I want to be
No way to know
How long she will be next to me

Chorus

Interlude
D/F# C - 2x

Bridge Riff [2:18-2:41] - Piano to guitar
e|--2--3-----2--3-----2--3-----2--3-----|
B|--------3--------3--------3--------3--|
G|--------------------------------------|
D|--------------------------------------|
A|--------------------------------------|
E|--------------------------------------|

Bridge
D/F# C
From early morning the city breaks
D/F# C
I’ve been calling for years and years and years and years
D/F# C
And you never left me no messages, you never sent me no letters
D/F#
You got some kind of nerve
C
Taking all I was

Chorus - 1st half piano followed by full band 1x through

Outro
Em C G D/F#
You found me
Em C
Why’d you have to wait?
G D/F# G Em
To find me, to find me

*Chords Used
Em D/F# G C A7sus4 G/B
e|------------3-----------------|
B|--0----3----3--1----3------3--|
G|--0----2----0--0----0------0--|
D|--2----0----0--2----2------0--|
A|--2----x----2--3----0------2--|
E|--0----2----3-----------------|

Volver a Home ˆ Ir hasta Arriba ˆ

Todas las canciones, letras y videos son propiedad de sus autores.
Las traducciones y el resto son adaptaciones e interpretaciones con el fin de darlos a conocer a la gente.
El contenido del sitio es meramente informativo - "SI a la Música, NO a la Piratería"
© 2008 SonidoX