Sonidox.com
 


Buscador de Traducciones:

A  B  C  D  E  F  G  H  I  J  K  L  M  N  O  P  Q  R  S  T  U  V  W  X  Y  Z  #

Seguinos en Twitter Dale ME GUSTA a nuestra Fanpage



INTRO:

e-----1-----------5---------|
B----------3------------5---|
G---------------------------|
D---------------------------|
A---------------------------|
E---------------------------|


VERSE:

Play it with Chords


Dm A# F C
Do you know what's worth fighting for,
Dm A# F C
When it's not worth dying for?
Dm A# F C
Does it take your breath away
A# C
And you feel yourself suffocating?

Dm A# F C
Does the pain weigh out the pride?
Dm A# F C
And you look for a place to hide?
Dm A# F C
Did someone break your heart inside?
A#
You're in ruins

CHORUS:

One, 21 guns
Lay down your arms
Give up the fight
One, 21 guns
Throw up your arms into the sky,
You and I


e-----|---------------------------------------- | -------------|
B-----|---------------------------------------- | -------------|
G--5--|----------77--5555--3333------55555555-- | 3333------5--|
D--5--|--33--22--77--5555--3333-3333-55555555-- x2 | then 3333-3333-5--|
A--3--|--33--33--55--3333--1111-3333-33333333-- | 1111-3333-3--|
E-----|--11--00-----------------1111----------- | -----1111----|

(You and I)


VERSE:

Dm A# F C
When you're at the end of the road
Dm A# F C
And you lost all sense of control
Dm A# F C
And your thoughts have taken their toll
A# C
When your mind breaks the spirit of your soul
Dm A# F C
Your faith walks on broken glass
Dm A# F C
And the hangover doesn't pass
Dm A# F C
Nothing's ever built to last
A#
You're in ruins.


CHORUS:


One, 21 guns
Lay down your arms
Give up the fight
One, 21 guns
Throw up your arms into the sky,
You and I

e-----|---------------------------------------- | --------------------|
B-----|---------------------------------------- | --------------------|
G--5--|----------77--5555--3333------55555555-- | 3333------55555555--|
D--5--|--33--22--77--5555--3333-3333-55555555-- x2 | then 3333-3333-55555555--|
A--3--|--33--33--55--3333--1111-3333-33333333-- | 1111-3333-33333333--|
E-----|--11--00-----------------1111----------- | -----1111-----------|

BRIDGE:


Did you try to live on your own
When you burned down the house and home?
Did you stand too close to the fire?
Like a liar looking for forgiveness from a stone


e--------------------|---------------------- |------------------------|
B--------------------|---------------------- |------------------------|
G--77--33------5555--|--77--33--------2222-- |--33333333-55555555-----|
D--77--33--33--5555--|--77--33--3333--2222-- x2|--33333333-55555555-----|
A--55--11--33--3333--|--55--11--3311--0000-- |--11111111-33333333-----|
E----------11--------|----------1111-------- |------------------------|


GUITAR SOLO:


e----5----5----------------------------------------- |--------------------------------|
B--6--6-8---6---6-----6-----3----------5-5-5-5-6-8-- |----3----------5-5-5-5-5-5-5-5--|
G-------------7---7-9---7-3---3-5-3-2--------------- |--3---3-5-3-2-------------------|
D--------------------------------------------------- x2|--------------------------------|
A--------------------------------------------------- |--------------------------------|
E--------------------------------------------------- |--------------------------------|

INTRO:

e-----1-----------5---------|
B----------3------------5---|
G---------------------------| x2
D---------------------------|
A---------------------------|
E---------------------------|

VERSE:

Dm A# F C
When it's time to live and let die
Dm A# F C
And you can't get another try
Dm A# F C
Something inside this heart has died
A#
You're in ruins.

CHORUS:

One, 21 guns
Lay down your arms
Give up the fight
One, 21 guns
Throw up your arms into the sky,
You and I

e---------------------------------------- |
B---------------------------------------- |
G----------77--5555--3333------55555555-- |
D--33--22--77--5555--3333-3333-55555555-- x2 |
A--33--33--55--3333--1111-3333-33333333-- |
E--11--00-----------------1111----------- |


e---------------------------------------- | --------------------|
B---------------------------------------- | --------------------|
G----------77--5555--3333------55555555-- | 3333------5---------|
D--33--22--77--5555--3333-3333-55555555-- x2 | then 3333-3333-5---------|
A--33--33--55--3333--1111-3333-33333333-- | 1111-3333-3---------|
E--11--00-----------------1111----------- | -----1111-----------|

Volver a Home ˆ Ir hasta Arriba ˆ

Todas las canciones, letras y videos son propiedad de sus autores.
Las traducciones y el resto son adaptaciones e interpretaciones con el fin de darlos a conocer a la gente.
El contenido del sitio es meramente informativo - "SI a la Música, NO a la Piratería"
© 2008 SonidoX